O Senhor busca

O Senhor busca adoradores, que o adorem em espírito e verdade .

Amazon MP3 Clips

Buscando a Face de Deus

Is 55.6 [Buscai ao Senhor] enquanto se pode achar, invocai-o enquanto está perto.

Quem sou eu

quarta-feira, 23 de março de 2011

Entenda a providencia de Deus

Às vezes não entendemos o agir de Deus em nossas vidas. É estranha a maneira como Ele age, mas o final redunda em bençãos reais e firmes sobre a nossa vida.
Boa meditação- no final canta Jamal.

quinta-feira, 17 de março de 2011

Ensaio de Domingo -20/03/11

Horario- 17:30 hs
Sobre as musicas :
1-Pela fé :André Valadão:
Pela Fé

Ano: 2009 -



Tom: F B

Intro: PIANO – F Dm Bb C4 C
TODOS – F Dm Bb C4 C (2x)

F Dm
Pela fé posso clamar
Bb C4 C
Pela fé posso enxergar
F Dm
Pela fé posso tocar
Bb C
Pela fé, pela fé

Bb C Dm
Não há muralhas
C/E Bb C Dm F C
Que ficarão de pé diante de mim
ocultar tablatura


G|---------3----
D|-3-3-2---3----
A|-------3-1----


Bb C Dm
Estou firmado
C/E Bb C Dm
Em Cristo pra sempre tenho a luz em mim


Bb C Dm
Não há muralhas
C/E Bb C Dm F C
Que ficarão de pé diante de mim
ocultar tablatura


G|---------3----
D|-3-3-2---3----
A|-------3-1----


Bb C Dm
Estou firmado
C/E Bb C Dm
Em Cristo pra sempre tenho a luz em mim



Passagem: F – Dm – Bb – C4 C

F Dm
Pela fé posso mudar
Bb C4 C
Pela fé posso alcançar
F Dm
Pela fé posso viver
Bb C
Pela fé, pela fé

Bb C Dm
Não há muralhas
C/E Bb C Dm F C
Que ficarão de pé diante de mim
ocultar tablatura


G|---------3----
D|-3-3-2---3----
A|-------3-1----


Bb C Dm
Estou firmado
C/E Bb C Dm
Em Cristo pra sempre tenho a luz em mim


Bb C Dm
Não há muralhas
C/E Bb C Dm F C
Que ficarão de pé diante de mim
ocultar tablatura


G|---------3----
D|-3-3-2---3----
A|-------3-1----


Bb C Dm
Estou firmado
C/E Bb C Dm
Em Cristo pra sempre tenho a luz em mim



F Dm
Pela fé...
Bb C4 C
Pela fé...
F Dm
Pela fé...
Bb C4 C F
Pela fé...
Download da musica:http://www.4shared.com/audio/z999NhF4/Andre_Valado_-_Pela_F.htm

2.A batalha é do Senhor :


Tom: F#m7
Intro: [ A F#m7 , G9 D/E E , A F#m7 , G9 Em7 ]

F#m7 D7+ Bm7
Quando os grandes homens de Judá viram o inimigo
F#m7 D7+ [ D A/C# Bm7 ]
O Senhor mandou que eles não temessem, pois daria a vitória
Bm7 C#m7 D7+ A/C#
Lhes chamou a cantar uma nova canção,
Bm7 C#m7 A/E E
Abaixar a espada e levantar um louvor...
A F#m7 G9
Canta ao Senhor com alegre som
D/E E A
Erga a voz para o seu louvor
F#m7 G9
Um canto vencedor na tribulação
D/E E A
Crê somente, a batalha é do Senhor (2x)
F#m7
Quando algo mau te encontrar
D7+ Bm7
Confia no Senhor
F#m7
Crê em Deus que não te deixará,
D7+ [ D A/C# Bm7 ]
Ele sempre perto está
Bm7 C#m7 D7+ A/C#
Você pode erguer uma nova canção,
Bm7 C#m7 A/E E
Porque a batalha é do Senhor...
Canta ao Senhor...
A/G D/F# Dm/F A4 A
Porque ele é bom, seu amor dura para sempre
A/G D/F# Dm/F F#m7
Porque ele é bom, seu amor dura para sempre
D/E E7
Pra sempre e sempre...
Download: http://www.4shared.com/audio/TaatNo9J/A_batalha__do_senhor.htm

3: Vem !
Vem Esta É a Hora
Vineyard
Tom: D

(intro) D

D D9 D4 D
Vem, esta é a hora da adooooração
A A9 Em G
Vem, dar a Ele teu coraaaação_
D D9 D4 D
Vem, assim como estás para aaaadorar
A A9 Em G
Vem, assim como estás diante do Pai_
D
Vem
G D
Toda língua confessará o Senhor
G D/F#
Todo joelho se dobrará
G Bm
Mas aquele que a Ti escolher
Em A4 A
O tesouro maior terá 1ª(Volta ao começo)

(solo 2) E E4 E B F#m E/G#
E E4 E B F#m E/G# E


E|--------------------s---------------------------------------------------------|
B|-9~--7-9-10-9--7--/10--10-8-9~~~~-----7~~----7-9-10-9--7--5-5-------5-5-------|
G|---------------------------------------------------------------6-7------------|
D|------------------------------------------------------------------------------|
A|------------------------------------------------------------------------------|
E|------------------------------------------------------------------------------|


E|------------------------------------------------------------------------------|
B|-9~-7-9-10-9--7-9-10--10-8-9~~-----19~~---19-21-22-21-19--17-17-------17-17---|
G|----------------------------------------------------------------18-19---------|
D|------------------------------------------------------------------------------|
A|------------------------------------------------------------------------------|
E|------------------------------------------------------------------------------|

A E
Toda língua confessará o Senhor
A E
Todo joelho se dobrará
A C#m
Mas aquele que a Ti escolher
F#m B
O tesouro maior terá

E E4 E
Vem, esta é a hora da adooooração
B F#m E/G# A
Vem, dar a Ele teu co- ra- ção_
E E4 E
Vem, assim como estás para aaaadorar
B F#m A
Vem, assim como estás diante do Pai_

E A/E E A/E E
Vem, Vem, Vem, Vem, Vem

Download:http://www.4shared.com/audio/4oFu9Js-/Vineyard_-_Vem_Esta__a_Hora.htm